Tablaturas de Chrono Trigger

Ir abajo

Tablaturas de Chrono Trigger

Mensaje  Invitado el Sáb Ene 10, 2009 2:37 am

Aquí os dejo una que suena cuando ganas un combatillo. Que es muy fácilita de tocar.


|-10------10-9-9-9-10------10------10-9-10-12-14--14-15-14-12-10------10-9-9-9-10----
|----8-10-------------10------8-10----------------------------------8-10-------------10-
|-----------------------------------------------------------------------------------------
|-----------------------------------------------------------------------------------------
|-----------------------------------------------------------------------------------------
|-----------------------------------------------------------------------------------------

|-----------------------------8-10---
|--8---5-6-5-6-8-6-8-10-8-10--------
|----7--------------------------------
|-------------------------------------
|-------------------------------------
|-------------------------------------

Invitado
Invitado


Volver arriba Ir abajo

Volver arriba


 
Permisos de este foro:
No puedes responder a temas en este foro.