Tablaturas de Final Fantasy VI

Ir abajo

Tablaturas de Final Fantasy VI

Mensaje  Invitado el Dom Ene 11, 2009 10:31 pm

Empezaremos con el Aria de Mezzo Caraterre:



|-----------------4--2-4-5--5-4-2-0---------
|--2-3-5----2-3-5---------------------------
|--------2----------------------------------
|-------------------------------------------
|-------------------------------------------
|-------------------------------------------

|---------------------------------------------
|--5-5-5-3-2-3---3-3-3-2-1-2--2-2-0---0-2-5-
|-------------------------------------2-------
|---------------------------------------------
|---------------------------------------------
|---------------------------------------------

|-----------------4--2-4-5--5-4-2-0---------
|--2-3-5----2-3-5---------------------------
|--------2----------------------------------
|-------------------------------------------
|-------------------------------------------
|-------------------------------------------

|---------------------------------------------
|--5-5-5-3-2-3---3-3-3-2-1-2---2-2-0---0----
|--------------------------------------2---2--
|---------------------------------------------
|---------------------------------------------
|---------------------------------------------

Invitado
Invitado


Volver arriba Ir abajo

Volver arriba

- Temas similares

 
Permisos de este foro:
No puedes responder a temas en este foro.